Bangla Chords:

0 comment(s) so far...have your say!

Ekla Ghor Amar Desh (Fossils : Fossils) : Tabs


qrcode for - Ekla Ghor Amar Desh (Fossils : Fossils) : Tabs
Song: Ekla Ghor
Artist: Rupam Islam, Fossils
From: Fossils (2002)


View:
{ Chords } - { Strum } - { Tabs } - { Lyrics } - { PDF } - { Videos }



Guitar Tabs:
Intro / Interlude:
E------------------------------------
A-0------0------3------3-------------
D--2---2--2---2--2---2--2---2--------
G---2-2----2-2----0-0----0-0---------
B----1------1------1------1----------
e------------------------------------


Basic Verse:
E----------------------------------------------------------
A----------------------------------------------------------
D-2222-22-0h2-22p0-0h2222-2p0-0h2-33-333-3333-33-53-22-202-
G----------------------------------------------------------
B----------------------------------------------------------
e----------------------------------------------------------

E----------------------------------------------------------
A-----------------------------555--------------------------
D-3333-33-333-33-3-22-222-002----3-333---------------------
G---------------2---------------------2----22h4------------
B--------------------------------------2222----------------
e----------------------------------------------------------


Basic Chorus:
E----------------------------------------------------------------
A----------------------------------------------------------------
D----------------------------------------------------------------
G-22-----22-----2--------2s4----------------------------2s4-4--2-
B---010h1--010h1-01-11-13------113-3s5-11----------33-13-----11--
e---------------------------------0------01-0h1-110--------------


What do these symbols mean? Reading Tabs...
http://banglachords.blogspot.com/2010/10/ekla-ghor-amar-desh-fossils-fossils.html



Liked 'Ekla Ghor Amar Desh (Fossils : Fossils) : Tabs' enough to share / save?

Ekla Ghor Amar Desh (Fossils : Fossils) : Tabs

Comments: 0 comment(s)...have your say!

BanglaChords Tip:

Tune your guitar before you start playing.^Top^
 





# Hosted for free on Blogspot.com / "Powered by Blogger." Get yours today at www.blogger.com
# The material collected and made available through these sites is exclusively intended for private study, research & to provide study material for musicians - in good faith. (Copyrights)
# This site uses cookies to offer you a better browsing experience. Kindly read the Terms of Service & Privacy policy and continue only if you agree.
# Copyrights, wherever applicable: IndianGuitarChords.Blogspot.Com (™ ©) / Arindam Sarkar © - MMVIII - MMXVI