Bangla Chords:

0 comment(s) so far...have your say!

Dariye Acho Tumi Aamar Gaaner Oparey : Tabs


qrcode for - Dariye Acho Tumi Aamar Gaaner Oparey : Tabs
Song: Dariye Acho Tumi Aamar Gaaner Oparey
Artist: Various artists, Rabindranath Tagore
From: Gitobitan


View:
{ Chords } - { Strum } - { Tabs } - { Lyrics } - { PDF } - { Videos }



Guitar Tabs:
Verse 1:
Dariye acho tumi aamar gaaner oparey...
E------------------------------------
A------------------------------------
D------------------------------------
G----------8--6----------------------
B-7---767-6-66-6s7s9-9s6-4h5s7-------
e--776------------------------------- x2

Amar shurguli paay choron, ami pai ne tomare.
E------------------------------------
A------------------------------------
D------------------------------------
G------------------------------------
B-777----7p6-6h7-67-------------4h6--
e----6-46-------4--49-66h764-4h7-----

Dariye acho tumi aamar gaaner oparey...
E------------------------------------
A------------------------------------
D------------------------------------
G----------8--6----------------------
B-7---767-6-66-6s7s9-9s6-4h5s7-------
e--776------------------------------- x2


Verse 2:
Batash bohey mori mori, aar bedhe rekho na tori.
E--------------------------------------
A--------------------------------------
D--------------------------------------
G--------------------------------------
B-77----------------------9-(11)p99-97-
e---766-77p6-9p77-6999p776---------6--- x2

Esho esho paar hoye mor hridoy majhare.
E------------------------------------
A------------------------------------
D------------------------------------
G--------6-----------6---------------
B-66------777----76-6----------------
e---444-4-----76---------------------

Dariye acho tumi aamar gaaner oparey...
E------------------------------------
A------------------------------------
D------------------------------------
G----------8--6----------------------
B-7---767-6-66-6s7s9-9s6-4h5s7-------
e--776-------------------------------

Verse 3: similar


What do these symbols mean? Reading Tabs...
http://banglachords.blogspot.com/2010/10/dariye-acho-tumi-aamar-gaaner-oparey.html



Liked 'Dariye Acho Tumi Aamar Gaaner Oparey : Tabs' enough to share / save?

Dariye Acho Tumi Aamar Gaaner Oparey : Tabs

Comments: 0 comment(s)...have your say!

BanglaChords Tip:

Tune your guitar before you start playing.^Top^
 





# Hosted for free on Blogspot.com / "Powered by Blogger." Get yours today at www.blogger.com
# The material collected and made available through these sites is exclusively intended for private study, research & to provide study material for musicians - in good faith. (Copyrights)
# This site uses cookies to offer you a better browsing experience. Kindly read the Terms of Service & Privacy policy and continue only if you agree.
# Copyrights, wherever applicable: IndianGuitarChords.Blogspot.Com (™ ©) / Arindam Sarkar © - MMVIII - MMXVI