Bangla Chords:

2 comment(s) so far...have your say!

Bishakto Manush (Fossils : Fossils) : Tabs


qrcode for - Bishakto Manush (Fossils : Fossils) : Tabs
Song: Bishakto Manush
Artist: Rupam Islam, Fossils
From: Fossils (2002)


View:
{ Chords } - { Strum } - { Tabs } - { Lyrics } - { PDF } - { Videos }



Guitar Tabs:
Intro / Interlude finger-picking tabs:
E------------------------------------
A-3---3---3---3----------------------
D--3-3-3-3-3-3-1---------------------
G---1---1---1---0--------------------
B------------------------------------
e------------------------------------ (repeats)


Basic Chorus: repeat {1+1}
E------------------------------------
A-333----33-----------3-3------------
D----13-3--13-3-113--5---13-3--------
G------1-----1-----13------1---------
B------------------------------------
e------------------------------------

E---------------------------------------
A-33--3-3-33333-4-4-44444---------------
D---13-------------------1-11-11111-3-2-
G---------------------------------------
B---------------------------------------
e---------------------------------------


Basic Verse: repeat {1+1}
E--------------------------------------
A--------------------------------------
D-33------3s6-----3p1-3-----3s6----3p1-
G-----31-3---11113------31-3---1113----
B---11-----------------1---------------
e--------------------------------------

E------------------------------------------
A------------------------------------------
D-333----3-------------333----3------------
G----01-0-1-33p11-3s5-----01-0-1-33p11-3s5-
B------------------------------------------
e------------------------------------------


What do these symbols mean? Reading Tabs...
http://banglachords.blogspot.com/2010/10/bishakto-manush-fossils-fossils-tabs.html



Liked 'Bishakto Manush (Fossils : Fossils) : Tabs' enough to share / save?

Bishakto Manush (Fossils : Fossils) : Tabs

Comments: 2 comment(s)...have your say!

Anirbansaid...

please lead solo tar tabs dao na !

Arindam Sarkarsaid...

Lead boltey ki guitar sologulo bolcho? Solota to post kora mushkil. Ganer thekeo onek beshi shomoy lagay ar temon accurate-o hoy na. Tai leads generaly post korte pari na. Sorry. Poray shomoy pelay try korbo.

BanglaChords Tip:

Tune your guitar before you start playing.^Top^
 





# Hosted for free on Blogspot.com / "Powered by Blogger." Get yours today at www.blogger.com
# The material collected and made available through these sites is exclusively intended for private study, research & to provide study material for musicians - in good faith. (Copyrights)
# This site uses cookies to offer you a better browsing experience. Kindly read the Terms of Service & Privacy policy and continue only if you agree.
# Copyrights, wherever applicable: IndianGuitarChords.Blogspot.Com (™ ©) / Arindam Sarkar © - MMVIII - MMXVI