Bangla Chords:

0 comment(s) so far...have your say!

Barandaye Roddur (Bhoomi) : Tabs


qrcode for - Barandaye Roddur (Bhoomi) : Tabs
Song: Barandaye Roddur
Artist: Bhoomi
From: Jatra Shuru (2000)


View:
{ Chords } - { Strum } - { Tabs } - { Lyrics } - { PDF } - { Videos }



Guitar Tabs:
Intro Tabs:
E-------------------------------------------
A-------------------------------------------
D--------------------------------(10)-(10)--
G------------------(10)9-9(10)------9----9--
B--------(10)-(10)8-----------8------8----8-
e-88-87-8-----------------------------------

E------------------------------------------------------------
A----------------------(10)----------------------------------
D-(10)----(10)-(10)(10)----(10)----(10)-(10)(10)---(10)-(10)-
G-----79-7----7----------------79-7----7-------------9----9--
B-----------------------------------------------------8----8-
e------------------------------------------------------------ x2


Basic Verse:

Baranday roddur - Ami aramkedaray boshe du pa nachai re...
E------------------------------------
A------------------------------------
D------------------------------------
G------------------------------------
B-8--8-8----------------8------------
e--58-8-588-8(10)87-7875------------- x2

Callinger ghonta shunte chute giye dorja khuli -
E--------------------|-------------------
A--------------------|-------------------
D--------------------|-------------------
G--------------------|-------------------
B-8------------------|----8------------8-
e--56-5656-5656-5656-|(x2)-56-5656-5865--

Tomar dekha nai re, tomar dekha nai! x2
E------------------------------|-------
A------------------------------|-------
D------------8-----------------|-------
G--------7777--7777-7------755-|+7-)---
B-5555-58------------5h6-55----|--5)---
e------------------------------|------- (repeats)


What do these symbols mean? Reading Tabs...
http://banglachords.blogspot.com/2010/10/barandaye-roddur-bhoomi-tabs.html



Liked 'Barandaye Roddur (Bhoomi) : Tabs' enough to share / save?

Barandaye Roddur (Bhoomi) : Tabs

Comments: 0 comment(s)...have your say!

BanglaChords Tip:

Tune your guitar before you start playing.^Top^
 





# Hosted for free on Blogspot.com / "Powered by Blogger." Get yours today at www.blogger.com
# The material collected and made available through these sites is exclusively intended for private study, research & to provide study material for musicians - in good faith. (Copyrights)
# This site uses cookies to offer you a better browsing experience. Kindly read the Terms of Service & Privacy policy and continue only if you agree.
# Copyrights, wherever applicable: IndianGuitarChords.Blogspot.Com (™ ©) / Arindam Sarkar © - MMVIII - MMXVI