Bangla Chords:

0 comment(s) so far...have your say!

Ami Brishti Dekhechi (Anjan Dutta) : Tabs


qrcode for - Ami Brishti Dekhechi (Anjan Dutta) : Tabs
Song: Brishti
Artist: Anjan Dutta
From: Purono Guitar (1995)


View:
{ Chords } - { Strum } - { Tabs } - { Lyrics } - { PDF } - { Videos }



Guitar Tabs:
Basic Chorus:

Ami brishti dekhechi...
E----------------------------------------------
A-5--------------------------------------------
D--244-544-4444-544s2--2455-55p44-44p22-2h4220-
G----------------------------------------------
B----------------------------------------------
e---------------------------------------------- x2

E------------------------------------
A-5----------------------------------
D--244-544---------------------------
G------------------------------------
B------------------------------------
e------------------------------------

Basic Verse:

Chaarte deyaal manei noy to ghor...
E------------------------------------
A------------------------------------
D------------------------------------
G-3333-34-2------3333-34-2-----------
B--------2-0h2p0--------2-0h2p0------
e------------------------------------

Kokhon kisher taaney manush...
E------------------------------------
A------------------------------------
D------------------------------------
G--------------------------2---------
B-02-2-3-----------32-00-00----------
e-----0-0-00-0h20-0------------------

Jhapsha chokhe dekha ei shohor.
E------------------------------------
A------------------------------------
D--------------4---------------------
G-22-2220-0h222----------------------
B------------------------------------
e------------------------------------


What do these symbols mean? Reading Tabs...
http://banglachords.blogspot.com/2010/10/ami-brishti-dekhechi-anjan-dutta-tabs.html



Liked 'Ami Brishti Dekhechi (Anjan Dutta) : Tabs' enough to share / save?

Ami Brishti Dekhechi (Anjan Dutta) : Tabs

Comments: 0 comment(s)...have your say!

BanglaChords Tip:

Tune your guitar before you start playing.^Top^
 





# Hosted for free on Blogspot.com / "Powered by Blogger." Get yours today at www.blogger.com
# The material collected and made available through these sites is exclusively intended for private study, research & to provide study material for musicians - in good faith. (Copyrights)
# This site uses cookies to offer you a better browsing experience. Kindly read the Terms of Service & Privacy policy and continue only if you agree.
# Copyrights, wherever applicable: IndianGuitarChords.Blogspot.Com (™ ©) / Arindam Sarkar © - MMVIII - MMXVI