Bangla Chords:

0 comment(s) so far...have your say!

Pherari Mon (Antaheen) : Tabs


qrcode for - Pherari Mon (Antaheen) : Tabs
Song: Pherari Mon
Artist: Shreya Ghoshal, Babul Supriyo
From: Antaheen (2009)


View:
{ Chords } - { Strum } - { Tabs } - { Lyrics } - { PDF } - { Videos }



Guitar Tabs:
Basic Theme:
E----------------------------------------------------------
A----------------------------------------------------------
D-------------799------------------------------------------
G-----------------------------------------------------66h7-
B-75757-75757----75757-75757----778---------8s(10)(10)-----
e----------------------------575---55h7-77p5---------------

E------------------------------------
A------------------------------------
D------------------------------------
G----------------------66h7----------
B-78---------8s(10)(10)--------------
e---55h7-77p5------------------------


What do these symbols mean? Reading Tabs...
http://banglachords.blogspot.com/2010/09/pherari-mon-tabs.html



Liked 'Pherari Mon (Antaheen) : Tabs' enough to share / save?

Pherari Mon (Antaheen) : Tabs

Comments: 0 comment(s)...have your say!

BanglaChords Tip:

Tune your guitar before you start playing.^Top^
 





# Hosted for free on Blogspot.com / "Powered by Blogger." Get yours today at www.blogger.com
# The material collected and made available through these sites is exclusively intended for private study, research & to provide study material for musicians - in good faith. (Copyrights)
# This site uses cookies to offer you a better browsing experience. Kindly read the Terms of Service & Privacy policy and continue only if you agree.
# Copyrights, wherever applicable: IndianGuitarChords.Blogspot.Com (™ ©) / Arindam Sarkar © - MMVIII - MMXVI