Bangla Chords:

0 comment(s) so far...have your say!

Amar Dakshin Khola Janalay (Moheener Ghoraguli) : Tabs


qrcode for - Amar Dakshin Khola Janalay (Moheener Ghoraguli) : Tabs
Song: Dokhin Khola Janalay
Artist: Moheener Ghoraguli
From: Maya (1997)


View:
{ Chords } - { Strum } - { Tabs } - { Lyrics } - { PDF } - { Videos }



Guitar Tabs:
Basic Theme:
Amar dakshin khola janalay...(repeats in parts)
E---------------------------------------------------
A---------------------------------------------------
D-22-2--------2--2--------------------22220-2-------
G--------222---22-22-22-4-20--2--------------022-22-
B-----1-0--------------------1-1-31131--------------
e---------------------------------------------------


Udaar bondhu baatash, jagay...
E-----------------------3-------------
A---------------------55-53-55--------
D-233--233-------22-20--------52------
G----00---00-2-22--0------------------
B-------------------------------------
e-------------------------------------X2


Amar uttor khola janalay, baade bayush....
E------------------------------------------
A------------------------------------------
D------------------------------------------
G------------------------------------------
B------------2252p0--3035200-00------------
e-002-22-2322------------------55-2-22520--


What do these symbols mean? Reading Tabs...
http://banglachords.blogspot.com/2010/09/amar-dakshin-khola-janalay-moheener.html



Liked 'Amar Dakshin Khola Janalay (Moheener Ghoraguli) : Tabs' enough to share / save?

Amar Dakshin Khola Janalay (Moheener Ghoraguli) : Tabs

Comments: 0 comment(s)...have your say!

BanglaChords Tip:

Tune your guitar before you start playing.^Top^
 





# Hosted for free on Blogspot.com / "Powered by Blogger." Get yours today at www.blogger.com
# The material collected and made available through these sites is exclusively intended for private study, research & to provide study material for musicians - in good faith. (Copyrights)
# This site uses cookies to offer you a better browsing experience. Kindly read the Terms of Service & Privacy policy and continue only if you agree.
# Copyrights, wherever applicable: IndianGuitarChords.Blogspot.Com (™ ©) / Arindam Sarkar © - MMVIII - MMXVI