Bangla Chords:

0 comment(s) so far...have your say!

Sakhi Bhabona Kahare Bole : Tabs


qrcode for - Sakhi Bhabona Kahare Bole : Tabs
Song: Sakhi Bhabona Kahare Bole
Artist: Rabindranath Tagore, Lata Mangeshkar (covered), Aarti Mukherji
From: Shriman Prithviraj (1973) / Gitobitan


View:
{ Chords } - { Strum } - { Tabs } - { Lyrics } - { PDF } - { Videos }



Guitar Tabs:
E------------------------------------
A------------------------------------
D------------------------------------
G------------------------------------
B-78-------------------88---8-87-----
e---55(10)-(10)97-75-57--7-5-5-------

E------------------------------------
A------------------------------------
D------------------------------------
G--7-6h77-677------------------------
B-5----------578--8--------8---------
e----------------5-5-778757-5--------

E------------------------------------
A------------------------------------
D------------------------------------
G----------777----767----------------
B---8--875----57-5-------------------
e-57-75---5--------------------------

E---------------------------------------------------
A---------------------------------------------------
D---7-----------------------------------------------
G-77-77-767-------------------------------7----767--
B----------578-8---------8-87-5-8------877-57-5-----
e-------------5-5-778-757-5----5-555-75-------------

(rest similar)


What do these symbols mean? Reading Tabs...
http://banglachords.blogspot.com/2010/08/sakhi-bhabona-kahare-bole-tabs.html



Liked 'Sakhi Bhabona Kahare Bole : Tabs' enough to share / save?

Sakhi Bhabona Kahare Bole : Tabs

Comments: 0 comment(s)...have your say!

BanglaChords Tip:

Tune your guitar before you start playing.^Top^
 





# Hosted for free on Blogspot.com / "Powered by Blogger." Get yours today at www.blogger.com
# The material collected and made available through these sites is exclusively intended for private study, research & to provide study material for musicians - in good faith. (Copyrights)
# This site uses cookies to offer you a better browsing experience. Kindly read the Terms of Service & Privacy policy and continue only if you agree.
# Copyrights, wherever applicable: IndianGuitarChords.Blogspot.Com (™ ©) / Arindam Sarkar © - MMVIII - MMXVI