Bangla Chords:

0 comment(s) so far...have your say!

Phule Phule Dhole Dhole : Tabs


qrcode for - Phule Phule Dhole Dhole : Tabs
Song: Phule Phule Dhole Dhole
Artist: Rabindranath Tagore
From: Charulata (1964), Kalamrigaya (Gitobitan)


View:
{ Chords } - { Strum } - { Tabs } - { Lyrics } - { PDF } - { Videos }



Guitar Tabs:
Basic Theme:
E---------------------------------------
A---------------------------------------
D---------------------------------------
G------------------------3h5p3-3--5-----
B-44--6p46------6p46--64-----------3h44-
e-----------3h63-----3------------------

E------------------------------------
A------------------------------------
D------------------------------------
G------------------------------------
B-------------6---4---4---6----------
e-68-644-64-34--6---6--643-----------


What do these symbols mean? Reading Tabs...
http://banglachords.blogspot.com/2010/08/phule-phule-dhole-dhole-tabs.html



Liked 'Phule Phule Dhole Dhole : Tabs' enough to share / save?

Phule Phule Dhole Dhole : Tabs

Comments: 0 comment(s)...have your say!

BanglaChords Tip:

Tune your guitar before you start playing.^Top^
 





# Hosted for free on Blogspot.com / "Powered by Blogger." Get yours today at www.blogger.com
# The material collected and made available through these sites is exclusively intended for private study, research & to provide study material for musicians - in good faith. (Copyrights)
# This site uses cookies to offer you a better browsing experience. Kindly read the Terms of Service & Privacy policy and continue only if you agree.
# Copyrights, wherever applicable: IndianGuitarChords.Blogspot.Com (™ ©) / Arindam Sarkar © - MMVIII - MMXVI