Bangla Chords:

0 comment(s) so far...have your say!

Ami Chini Go Chini Tomare : Tabs


qrcode for - Ami Chini Go Chini Tomare : Tabs
Song: Ami Chini Go Chini
Artist: Kishore Kumar, Rabindranath Tagore
From: Charulata (1964)


View:
{ Chords } - { Strum } - { Tabs } - { Lyrics } - { PDF } - { Videos }



Guitar Tabs:
Basic parts : Ami chini go chini tomare...
E------------------------------------
A------------------------------------
D------------------------------------
G------------------------------------
B-30---------------------------------
e---222-222-2320-20-2053h5-----------X2

E-------------------------------------
A-------------------------------------
D-------------------------------------
G-------------------------------------
B-78----------------------5579(10)-87-
e---5(10)9(12)(10)-7875-55------------


Basic parts: Tomay dekhechi sharodopraatay...
E------------------------------------------
A------------------------------------------
D------------------------------------------
G------------------------------------------
B------------------------------------5-----
e-22-222-223-3h555p3-355-375-353-223--234--

E------------------------------------
A------------------------------------
D------------------------------------
G------------------------------------
B-335-5---35s7-5-3p2p0-23------------
e----2-232---------------------------


Basic parts: Ami aakashe patiya kaan...
E------------------------------------------------------
A------------------------------------------------------
D------------------------------------------------------
G----------2-------------------------------------------
B-333-3-320-333-3---------------------------------5----
e----0-----------00-023-2-33333-333-3h53-3h53-2h32-532-


Basic Parts: Bhubhon bhromiya sheshe....
E---------------------------------------
A---------------------------------------
D---------------------------------------
G---------------------------------------
B---------------------------------------
e-22-222-223-3h555p3-355-375-353-223----


E-------------------------------------
A-------------------------------------
D-------------------------------------
G-------------------------------------
B-78-------------------------8---8-87-
e---55(10)-9(12)(10)-7h87-5-5-75--5---


What do these symbols mean? Reading Tabs...
http://banglachords.blogspot.com/2010/08/ami-chini-go-chini-tomare-tabs.html



Liked 'Ami Chini Go Chini Tomare : Tabs' enough to share / save?

Ami Chini Go Chini Tomare : Tabs

Comments: 0 comment(s)...have your say!

BanglaChords Tip:

Tune your guitar before you start playing.^Top^
 





# Hosted for free on Blogspot.com / "Powered by Blogger." Get yours today at www.blogger.com
# The material collected and made available through these sites is exclusively intended for private study, research & to provide study material for musicians - in good faith. (Copyrights)
# This site uses cookies to offer you a better browsing experience. Kindly read the Terms of Service & Privacy policy and continue only if you agree.
# Copyrights, wherever applicable: IndianGuitarChords.Blogspot.Com (™ ©) / Arindam Sarkar © - MMVIII - MMXVI