Bangla Chords:

0 comment(s) so far...have your say!

Jibone Ki Pabo Naa : Tabs


qrcode for - Jibone Ki Pabo Naa : Tabs
Song: Jibone Ki Pabo Naa
Artist: Manna Dey
From: Teen Bhuboner Paare (1969)


View:
{ Chords } - { Strum } - { Tabs } - { Lyrics } - { PDF } - { Videos }



Guitar Tabs:
Verse 1: {repeat 1+1}
E------------------------------------------
A-6--66------------------------------------
D--46--46---4h666---------------------44h6-
G--------553-------666-66-555-55-33333-----
B------------------------------------------
e------------------------------------------X2


Verse 2/3:
E------------------------------------
A------------------------------------
D------------------------------------
G---5--5--5-----6-663-663-636---65---
B-44-44--4-46-64-------------4-4-----
e------------------------------------X2

E------------------------------------------------------------
A------------------------------------------------------------
D-------------------------------64----------------------44h6-
G-333-333-333-333-333-333-356-65-----666-66-555-55-33333-----
B------------------------------------------------------------
e------------------------------------------------------------

E------------------------------------------
A-6--66------------------------------------
D--46--46---4h666---------------------44h6-
G--------553-------666-66-555-55-33333-----
B------------------------------------------
e------------------------------------------


Bridge:
E-------------------------------------
A-------------------------------------
D-666-664-66-------6---4-64--6--------
G--------3--4-6-444-333----43---------
B------------4------------------------
e-------------------------------------X2


What do these symbols mean? Reading Tabs...
http://banglachords.blogspot.com/2010/07/jibone-ki-pabo-naa-3-tabs-n-pdf.html



Liked 'Jibone Ki Pabo Naa : Tabs' enough to share / save?

Jibone Ki Pabo Naa : Tabs

Comments: 0 comment(s)...have your say!

BanglaChords Tip:

Tune your guitar before you start playing.^Top^
 





# Hosted for free on Blogspot.com / "Powered by Blogger." Get yours today at www.blogger.com
# The material collected and made available through these sites is exclusively intended for private study, research & to provide study material for musicians - in good faith. (Copyrights)
# This site uses cookies to offer you a better browsing experience. Kindly read the Terms of Service & Privacy policy and continue only if you agree.
# Copyrights, wherever applicable: IndianGuitarChords.Blogspot.Com (™ ©) / Arindam Sarkar © - MMVIII - MMXVI