Bangla Chords:

0 comment(s) so far...have your say!

Ei Korecho Bhalo, Nithur Hey : Tabs


qrcode for - Ei Korecho Bhalo, Nithur Hey : Tabs
Song: Ei Korecho Bhalo, Nithur Hey
Artist: Rabindranath Tagore
From: Gitobitan


View:
{ Chords } - { Strum } - { Tabs } - { Lyrics } - { PDF } - { Videos }



Guitar Tabs:
Basic Chorus:
E------------------------------------
A----------3----3--------------3-----
D------45-2-02-0-0-42-2h32-0020------
G----20-----------0------------------
B-110--------------------------------
e------------------------------------X2

E----------------------------------------
A------------------3----3--------------3-
D-----------------2-02-0-0-42-2h32-0020--
G----------------2--------0--------------
B-1101-0101-1-310------------------------
e------------0---------------------------

E------------------------------------
A----------3----3--------------3-----
D------45-2-02-0-0-42-2h32-0020------
G----20-----------0------------------
B-110--------------------------------
e------------------------------------

(rest similar)


What do these symbols mean? Reading Tabs...
http://banglachords.blogspot.com/2010/07/ei-korecho-bhalo-nithur-hey-tabs.html



Liked 'Ei Korecho Bhalo, Nithur Hey : Tabs' enough to share / save?

Ei Korecho Bhalo, Nithur Hey : Tabs

Comments: 0 comment(s)...have your say!

BanglaChords Tip:

Tune your guitar before you start playing.^Top^
 





# Hosted for free on Blogspot.com / "Powered by Blogger." Get yours today at www.blogger.com
# The material collected and made available through these sites is exclusively intended for private study, research & to provide study material for musicians - in good faith. (Copyrights)
# This site uses cookies to offer you a better browsing experience. Kindly read the Terms of Service & Privacy policy and continue only if you agree.
# Copyrights, wherever applicable: IndianGuitarChords.Blogspot.Com (™ ©) / Arindam Sarkar © - MMVIII - MMXVI