Bangla Chords:

0 comment(s) so far...have your say!

Bhenge Mor Ghorer Chabi : Tabs


qrcode for - Bhenge Mor Ghorer Chabi : Tabs
Song: Bhenge Mor Ghorer Chabi
Artist: Rabindranath Tagore (Rabindrasangeet : sung by various)
From: Gitabitan


View:
{ Chords } - { Strum } - { Tabs } - { Lyrics } - { PDF } - { Videos }



Guitar Tabs:
Basic Verse 1 and like:
E--------------(10)-(10)8(10)-------------8-
A-888-66-8-68-6--------------68-775h775h75--
D-------5-5---------------------------------
G-------------------------------------------
B------------------------------------------
e-------------------------------------------

E------------------------------------
A-8----------------------------------
D--58-8888-88-------88---------------
G------------58-7875--57-------------
B------------------------------------
e------------------------------------

E--------------(10)-(10)8(10)--------
A-888-66-8-68-6--------------68------
D-------5-5--------------------------
G------------------------------------
B------------------------------------
e------------------------------------

Basic Verses 2,3 and 4:
E------------------------------------
A-88-------------------------88------
D---5h8-7h888-8h(10)p8s7-7875--557---
G------------------------------------
B------------------------------------
e------------------------------------

E-------------------8----------------
A-888-66-88-668-65-5-568-------------
D-------5--5-------------------------
G------------------------------------
B------------------------------------
e------------------------------------

E------------------------------------
A-8------------8---------------------
D--58-88-8-7875-558------------------
G-------5----------------------------
B------------------------------------
e------------------------------------

E--------------(10)-(10)8(10)--------
A-888-66-8-68-6--------------68------
D-------5-5--------------------------
G------------------------------------
B------------------------------------
e------------------------------------


What do these symbols mean? Reading Tabs...
http://banglachords.blogspot.com/2010/07/bhenge-mor-ghorer-chabi-tabs.html



Liked 'Bhenge Mor Ghorer Chabi : Tabs' enough to share / save?

Bhenge Mor Ghorer Chabi : Tabs

Comments: 0 comment(s)...have your say!

BanglaChords Tip:

Tune your guitar before you start playing.^Top^
 





# Hosted for free on Blogspot.com / "Powered by Blogger." Get yours today at www.blogger.com
# The material collected and made available through these sites is exclusively intended for private study, research & to provide study material for musicians - in good faith. (Copyrights)
# This site uses cookies to offer you a better browsing experience. Kindly read the Terms of Service & Privacy policy and continue only if you agree.
# Copyrights, wherever applicable: IndianGuitarChords.Blogspot.Com (™ ©) / Arindam Sarkar © - MMVIII - MMXVI