Bangla Chords:

0 comment(s) so far...have your say!

Aha Ki Anondo Akashe Batashe : Tabs


qrcode for - Aha Ki Anondo Akashe Batashe : Tabs
Song:Aha Ki Anondo (Akashe Batashe)
Artist: Anup Ghoshal / Satyajit Ray (Lyrics & Music)
From:Hirak Rajar Deshe (Goopy Gyne Bagha Byne) (1980)


View:
{ Chords } - { Strum } - { Tabs } - { Lyrics } - { PDF } - { Videos }



Guitar Tabs:
Basic Chorus:
E------------------------------------
A------------------------------------
D------------------------------------
G-67---------------------------------
B----765-3h55h75p3-2h3p2-23----------
e---5--------------------------------X2


E------------------------------------
A------------------------------------
D------------------------------------
G------------------------------------
B-323--------------------------------
e----0-0302-2023-3205----------------


E------------------------------------
A------------------------------------
D------------------------------------
G-67---------------------------------
B----765-3h55h75p3-2h3p2-23----------
e---5--------------------------------


Basic Verse:
E------------------------------------
A------------------------------------
D------------------------------------
G------------------------------------
B--766h7-----------------------------
e-5-----55s9-999(10)----------------- X2


E-----------------------------------------------
A-----------------------------------------------
D-----------------------------------------------
G-----------------------------------------------
B--766h7----------------------------------------     -78------
e-5-----55s9-999(10)-9999h(10)99-9h(10)75-57875-(X2+)---57875-

E------------------------------------
A------------------------------------
D------------------------------------
G------------------------------------
B------------------------------------
e-999-9h(10)(10)(10)9h(10)-7-5-------X3

E------------------------------------------
A------------------------------------------
D------------------------------------------
G------------------------------------------
B-----------8777h8-78----------8777h8-875--
e-5787-5h7p5---------5787-5h7p5----------5-


What do these symbols mean? Reading Tabs...
http://banglachords.blogspot.com/2010/07/aha-ki-anondo-akashe-batashe-3-tabs-n.html



Liked 'Aha Ki Anondo Akashe Batashe : Tabs' enough to share / save?

Aha Ki Anondo Akashe Batashe : Tabs

Comments: 0 comment(s)...have your say!

BanglaChords Tip:

Tune your guitar before you start playing.^Top^
 





# Hosted for free on Blogspot.com / "Powered by Blogger." Get yours today at www.blogger.com
# The material collected and made available through these sites is exclusively intended for private study, research & to provide study material for musicians - in good faith. (Copyrights)
# This site uses cookies to offer you a better browsing experience. Kindly read the Terms of Service & Privacy policy and continue only if you agree.
# Copyrights, wherever applicable: IndianGuitarChords.Blogspot.Com (™ ©) / Arindam Sarkar © - MMVIII - MMXVI