Bangla Chords:

0 comment(s) so far...have your say!

E Ki Holo (Kishore Kumar) : Tabs


qrcode for - E Ki Holo (Kishore Kumar) : Tabs
Song: E Ki Holo
Artist: Kishore Kumar, R D Burman
From: Rajkumari (1970)


View:
{ Chords } - { Strum } - { Tabs } - { Lyrics } - { PDF } - { Videos }



Guitar Tabs:
Chorus:
E------------------------------------
A------------------------------------
D------------------------------------
G------------------------------------
B-67--6-67--6-79---99--------h7------
e---44----44----98---6-4h6-6p4--------

E------------------------------------
A------------------------------------
D------------------------------------
G--------------------8------86]]------
B-----9-----------976-9-[+[6----------
e-6666-8886-8h9986--------------------

Verses:
E------------------------------------
A------------------------------------
D------------------------------------
G-5h6-------6--6p5p3-356-------6-----
B----4h64h64-64---------4h6p4-4------
e------------------------------------X2

E------------------------------------
A--------------------------6---------
D-6------6-----h6-6----646--4--------
G--35-653-3-4p3----3653--------------
B------------------------------------
e------------------------------------


What do these symbols mean? Reading Tabs...
http://banglachords.blogspot.com/2010/02/e-ki-holo-kishore-kumar-3-tabs-n-pdf.html



Liked 'E Ki Holo (Kishore Kumar) : Tabs' enough to share / save?

E Ki Holo (Kishore Kumar) : Tabs

Comments: 0 comment(s)...have your say!

BanglaChords Tip:

Tune your guitar before you start playing.^Top^
 





# Hosted for free on Blogspot.com / "Powered by Blogger." Get yours today at www.blogger.com
# The material collected and made available through these sites is exclusively intended for private study, research & to provide study material for musicians - in good faith. (Copyrights)
# This site uses cookies to offer you a better browsing experience. Kindly read the Terms of Service & Privacy policy and continue only if you agree.
# Copyrights, wherever applicable: IndianGuitarChords.Blogspot.Com (™ ©) / Arindam Sarkar © - MMVIII - MMXVI