Bangla Chords:

0 comment(s) so far...have your say!

Purono Guitar (Anjan Dutta) : Tabs


qrcode for - Purono Guitar (Anjan Dutta) : Tabs
Song: Purono Guitar
Artist: Anjan Dutta
From: Purono Guitar (1995)


View:
{ Chords } - { Strum } - { Tabs } - { Lyrics } - { PDF } - { Videos }



Guitar Tabs:
Basic Tabs:
E------------------------------------
A------------------------------------
D------------------------------------
G-5-55-5-----------------------------
B-------3-685-55-555-5556-653--------
e------------------------------------

E------------------------------------
A------------------------------------
D------------------------------------
G---------------------3--------------
B-66-66-5555-33-3-3553---------------
e------------------------------------


What do these symbols mean? Reading Tabs...
http://banglachords.blogspot.com/2010/01/purono-guitar-anjan-dutta-3-tabs-n-pdf.html



Liked 'Purono Guitar (Anjan Dutta) : Tabs' enough to share / save?

Purono Guitar (Anjan Dutta) : Tabs

Comments: 0 comment(s)...have your say!

BanglaChords Tip:

Tune your guitar before you start playing.^Top^
 





# Hosted for free on Blogspot.com / "Powered by Blogger." Get yours today at www.blogger.com
# The material collected and made available through these sites is exclusively intended for private study, research & to provide study material for musicians - in good faith. (Copyrights)
# This site uses cookies to offer you a better browsing experience. Kindly read the Terms of Service & Privacy policy and continue only if you agree.
# Copyrights, wherever applicable: IndianGuitarChords.Blogspot.Com (™ ©) / Arindam Sarkar © - MMVIII - MMXVI