Bangla Chords:

0 comment(s) so far...have your say!

Nil Dhrubotara (Hemanta, Srikanto) : Tabs


qrcode for - Nil Dhrubotara (Hemanta, Srikanto) : Tabs
Song:Nil Dhrubotara
Artist:Hemanta Mukherjee (covered : Srikanto Acharya)


View:
{ Chords } - { Strum } - { Tabs } - { Lyrics } - { PDF } - { Videos }



Guitar Tabs:
Verse 1:
E--------------------------------------
A--------------------------------------
D--------------8-----8--8-8-----8------
G---------8-858-55-55-55---57775-5--88-
B-88-6h886-6----------------------66---
e--------------------------------------

E-------------------------------------------
A-------------------------------------------
D-------------------------------------------
G------------------8------87-7--------------
B-----86-8698-9864--686-86----6-----6898864-
e-6656-------------------------65555--------

Basic varying part of verses 2/3:
E-------------------------------------
A-------------------------------------
D-------------------------------------
G-------------------------------------
B----------8--------------------------
e-6688-6688-6(11)(10)(10)(10)(10)s8s6-

E------------------------------------
A------------------------------------
D------------------------------------
G------------------------------------
B---6--------------------------------
e-66-668s(10)-8(10)(12)(10)88--------


What do these symbols mean? Reading Tabs...
http://banglachords.blogspot.com/2010/01/nil-dhrubotara-hemanta-srikanto-3-tabs.html



Liked 'Nil Dhrubotara (Hemanta, Srikanto) : Tabs' enough to share / save?

Nil Dhrubotara (Hemanta, Srikanto) : Tabs

Comments: 0 comment(s)...have your say!

BanglaChords Tip:

Tune your guitar before you start playing.^Top^
 





# Hosted for free on Blogspot.com / "Powered by Blogger." Get yours today at www.blogger.com
# The material collected and made available through these sites is exclusively intended for private study, research & to provide study material for musicians - in good faith. (Copyrights)
# This site uses cookies to offer you a better browsing experience. Kindly read the Terms of Service & Privacy policy and continue only if you agree.
# Copyrights, wherever applicable: IndianGuitarChords.Blogspot.Com (™ ©) / Arindam Sarkar © - MMVIII - MMXVI