Bangla Chords:

0 comment(s) so far...have your say!

Ja Pakhi Urte Dilam Toke (Shilajeet) : Tabs


qrcode for - Ja Pakhi Urte Dilam Toke (Shilajeet) : Tabs
Song:Ja Pakhi Urte Dilam Toke
Artist:Shilajeet Majumdar
From:X=Prem (2000)


View:
{ Chords } - { Strum } - { Tabs } - { Lyrics } - { PDF } - { Videos }



Guitar Tabs:
Chorus part:
E------------------------------------
A------------------------------------
D------------------------------------
G------------------------------------
B------------8--------------8--------
e-(10)88-8656-8-(10)88-8656--5h6-----

E------------------------------------
A------------------------------------
D------------------------------------
G------------------------------------
B-------------------------8----------
e-666-5h66-656-(10)88-8656-8--888----

E------------------------------------
A------------------------------------
D------------------------------------
G------------------------------------
B------------8-----------------------
e-(10)88-8656-8----------------------


What do these symbols mean? Reading Tabs...
http://banglachords.blogspot.com/2010/01/ja-pakhi-urte-dilam-toke-shilajeet-3.html



Liked 'Ja Pakhi Urte Dilam Toke (Shilajeet) : Tabs' enough to share / save?

Ja Pakhi Urte Dilam Toke (Shilajeet) : Tabs

Comments: 0 comment(s)...have your say!

BanglaChords Tip:

Tune your guitar before you start playing.^Top^
 





# Hosted for free on Blogspot.com / "Powered by Blogger." Get yours today at www.blogger.com
# The material collected and made available through these sites is exclusively intended for private study, research & to provide study material for musicians - in good faith. (Copyrights)
# This site uses cookies to offer you a better browsing experience. Kindly read the Terms of Service & Privacy policy and continue only if you agree.
# Copyrights, wherever applicable: IndianGuitarChords.Blogspot.Com (™ ©) / Arindam Sarkar © - MMVIII - MMXVI