Bangla Chords:

0 comment(s) so far...have your say!

Ek Boishakhe Dekha Holo Dujonar : Tabs


qrcode for - Ek Boishakhe Dekha Holo Dujonar : Tabs
Song: Ek Boishakhe Dekha Holo Dujonar
Artist: Arati Mukherjee
From: Bilombito Loy (1970)


View:
{ Chords } - { Strum } - { Tabs } - { Lyrics } - { PDF } - { Videos }



Guitar Tabs:
Basic Chorus:
E----------------------------------------
A----------------------------------------
D----------------------------------------
G-5-----------------------5--------------
B--------------------868----88-6-668-44--
e--555-6865-666-666-5---5--5--5-----5----

E------------------------------------
A------------------------------------
D------------------------------------
G--535--------5----------------------
B-6---5h66666------------------------
e--------------555-6865-666----------

Basic Verse:
E-----------------------------------------------------
A-----------------------------------------------------
D-----------------------------------------------------
G-----------------------------------------------------
B-------------------(10)------------------------------
e-5888(10)s(11)(10)5----888-(10)(11)(10)6(10)(10)(10)-

E---------------------------------------------------------------------
A---------------------------------------------------------------------
D---------------------------------------------------------------------
G---------------------------------------------------------------------
B--------------------------------------------(10)(13)(12)(10)(10)(10)-
e-(12)(14)(15)(14)-(10)(12)(11)(12)-8(10)(10)-------------------------

E---------------------------------------------------
A---------------------------------------------------
D---------------------------------------------------
G-----------------------------------------7---------
B----------------------(10)(10)8(10)8----8----------
e-(12)(10)88-(10)877-87--------------(10)-----------(back to chorus)


What do these symbols mean? Reading Tabs...
http://banglachords.blogspot.com/2010/01/ek-boishakhe-dekha-holo-dujonar-3-tabs.html



Liked 'Ek Boishakhe Dekha Holo Dujonar : Tabs' enough to share / save?

Ek Boishakhe Dekha Holo Dujonar : Tabs

Comments: 0 comment(s)...have your say!

BanglaChords Tip:

Tune your guitar before you start playing.^Top^
 





# Hosted for free on Blogspot.com / "Powered by Blogger." Get yours today at www.blogger.com
# The material collected and made available through these sites is exclusively intended for private study, research & to provide study material for musicians - in good faith. (Copyrights)
# This site uses cookies to offer you a better browsing experience. Kindly read the Terms of Service & Privacy policy and continue only if you agree.
# Copyrights, wherever applicable: IndianGuitarChords.Blogspot.Com (™ ©) / Arindam Sarkar © - MMVIII - MMXVI