Bangla Chords:

0 comment(s) so far...have your say!

Chokhar Deshe (Bhoomi) - Majhi Amare Loiya Chol : Tabs


qrcode for - Chokhar Deshe (Bhoomi) - Majhi Amare Loiya Chol : Tabs
Song:Chokhar Deshe
Artist:Bhoomi
From:Jatra Shuru (2000)


View:
{ Chords } - { Strum } - { Tabs } - { Lyrics } - { PDF } - { Videos }



Guitar Tabs:
Basic Chorus: (repeat as per requirement)
E------------------------------------
A------------------------------------
D------------------------------------
G-555--------------------------------
B----556-----------------(10)(10)8---
e-------3377-88(12)(10)87------------

E------------------------------------
A------------------------------------
D------------------------------------
G-------------5----------------------
B------------5-3-5s665---------------
e-3565-3565-3------------------------

Basic Verse: (repeat as per requirement)
E-------------------------------------------
A-------------------------------------------
D-------------------------------------------
G-------------------------------------------
B-------------------------------------------
e-88h(12)-(12)(12)p(10)-(10)(10)h(12)-(10)8-

E-------------------------------------------------------
A-------------------------------------------------------
D-------------------------------------------------------
G-------------------------------------------------------
B-----8-(10)(10)8---------------------------------------
e-88-8-----------(10)(12)(13)(12)-78h(10)(10)-(12)(10)8-


E-------------------------------------------
A-------------------------------------------
D-------------------------------------------
G-------------------------------------------
B-------------------------------------------
e-88h(12)-(12)(12)p(10)-(10)(10)h(12)-(10)8-

E----------------------------------------------------
A----------------------------------------------------
D----------------------------------------------------
G----------------------------------------------57----
B-----8-(10)(10)8-8(10)(11)(10)8(10)(11)(10)-85--665-
e-88-8-----------------------------------------------

E------------------------------------
A------------------------------------
D------------------------------------
G------------------------------57----
B-8(10)(11)(10)8(10)(11)(10)-85--665-
e------------------------------------


What do these symbols mean? Reading Tabs...
http://banglachords.blogspot.com/2010/01/chokhar-deshe-bhoomi-majhi-amare-loiya_22.html



Liked 'Chokhar Deshe (Bhoomi) - Majhi Amare Loiya Chol : Tabs' enough to share / save?

Chokhar Deshe (Bhoomi) - Majhi Amare Loiya Chol : Tabs

Comments: 0 comment(s)...have your say!

BanglaChords Tip:

Tune your guitar before you start playing.^Top^
 





# Hosted for free on Blogspot.com / "Powered by Blogger." Get yours today at www.blogger.com
# The material collected and made available through these sites is exclusively intended for private study, research & to provide study material for musicians - in good faith. (Copyrights)
# This site uses cookies to offer you a better browsing experience. Kindly read the Terms of Service & Privacy policy and continue only if you agree.
# Copyrights, wherever applicable: IndianGuitarChords.Blogspot.Com (™ ©) / Arindam Sarkar © - MMVIII - MMXVI