Bangla Chords:

0 comment(s) so far...have your say!

Ami Ek Jajabor (Bhupen Hazarika) : Tabs


qrcode for - Ami Ek Jajabor (Bhupen Hazarika) : Tabs
Song: Ami Ek Jajabor
Artist: Dr. Bhupen Hazarika


View:
{ Chords } - { Strum } - { Tabs } - { Lyrics } - { PDF } - { Videos }



Guitar Tabs:
Verse 1:
E------------------------------------
A------------------------------------
D------------------------------------
G---------4------------4-------------
B-5-75-577--5-7h5-5774-57-57-7-------
e--4---------4--------------4-45-457-

E------------------------------------
A------------------------------------
D------------------------------------
G------------------4-----------------
B-----7---754--5-75-577--5-7h5-------
e-4755-754------4--------------------

Verse 2: (Basic pattern; repeat 1+1)
E------------------------------------
A------------------------------------
D------------------------------------
G------------------------------------
B--------------------(10)7-----------
e-45h7-777-777777-797-----5555-------

E------------------------------------
A------------------------------------
D------------------------------------
G------------------------------------
B------------------------------------
e-5555-575797-7975-75-744------------


What do these symbols mean? Reading Tabs...
http://banglachords.blogspot.com/2010/01/ami-ek-jajabor-bhupen-hazarika-3-tabs-n.html



Liked 'Ami Ek Jajabor (Bhupen Hazarika) : Tabs' enough to share / save?

Ami Ek Jajabor (Bhupen Hazarika) : Tabs

Comments: 0 comment(s)...have your say!

BanglaChords Tip:

Tune your guitar before you start playing.^Top^
 





# Hosted for free on Blogspot.com / "Powered by Blogger." Get yours today at www.blogger.com
# The material collected and made available through these sites is exclusively intended for private study, research & to provide study material for musicians - in good faith. (Copyrights)
# This site uses cookies to offer you a better browsing experience. Kindly read the Terms of Service & Privacy policy and continue only if you agree.
# Copyrights, wherever applicable: IndianGuitarChords.Blogspot.Com (™ ©) / Arindam Sarkar © - MMVIII - MMXVI