Bangla Chords:

0 comment(s) so far...have your say!

Tomar Holo Shuru Amar Holo Shara : Tabs


qrcode for - Tomar Holo Shuru Amar Holo Shara : Tabs
Song: Tomar Holo Shuru, Amar Holo Shara
Artist:Various
From:Gitobitan (Rabindra Sangeet)


View:
{ Chords } - { Strum } - { Tabs } - { Lyrics } - { PDF } - { Videos }



Guitar Tabs:
Basic Chorus:
E---------------------------------------------
A---------------------------------------------
D----------5----------------------------------
G-----545---24-5----5-------------------------
B-55-3---3------3-53---56---66----------8-----
e------------------------3-3--35-35s77-5-7h88-

Basic Verse:
E------------------------------------
A------------------------------------
D------------------------------------
G---------------------545------------
B-88-656------8---55-3---3-6653-6----
e-------55-775-88----------------33--


What do these symbols mean? Reading Tabs...
http://banglachords.blogspot.com/2009/12/tomar-holo-shuru-amar-holo-shara-3-tabs.html



Liked 'Tomar Holo Shuru Amar Holo Shara : Tabs' enough to share / save?

Tomar Holo Shuru Amar Holo Shara : Tabs

Comments: 0 comment(s)...have your say!

BanglaChords Tip:

Tune your guitar before you start playing.^Top^
 





# Hosted for free on Blogspot.com / "Powered by Blogger." Get yours today at www.blogger.com
# The material collected and made available through these sites is exclusively intended for private study, research & to provide study material for musicians - in good faith. (Copyrights)
# This site uses cookies to offer you a better browsing experience. Kindly read the Terms of Service & Privacy policy and continue only if you agree.
# Copyrights, wherever applicable: IndianGuitarChords.Blogspot.Com (™ ©) / Arindam Sarkar © - MMVIII - MMXVI