Bangla Chords:

0 comment(s) so far...have your say!

She Prothom Prem Amar Nilanjana (Lal Fite Sada Moja) : Tabs


qrcode for - She Prothom Prem Amar Nilanjana (Lal Fite Sada Moja) : Tabs
Song: Nilanjana
Artist: Nachiketa Chakraborty
From: Se Prothom Prem Amar (1995)


View: {Chords} - {Strum & Analysis} - {Tabs} - {Plain Lyrics} - {Song & Videos}


Guitar Tabs:
Intro tabs - played ad lib:

E--------------------------------------------------------------
A--7(r)--------------------------------------------------------
D----7(L)------------------------------------------------------
G--------4(I)--4--4(slide)5--4-------5(R)--4(m)--4(slide)5-----
B----------------------------------3(I)------------------------
e--------------------------------------------------------------

E--------------------------------------------------------------
A--7(r)--------------------------------------------------------
D----7(L)------------------------------------------------------
G--------4(I)--5--5---4-------5--4--4(slide)5------------------
B--------------------------3---------------------(faster)------
e--------------------------------------------------------------

E--------------------------------------------------------------
A--7---------|------------|-------------|----------------------
D-----7--7--|--5---------|---5--------|-----7------------------
G------------|-----4--4--|------5--5--|--------7--7------------
B------------|------------|-------------|----------------------
e--------------------------------------------------------------

E--------------------------------------------------------------
A--------------------------------------------------------------
D-------------------------------7(L)---------------------------
G--9--9--10--9--9h--10--9-----------4(I)--5---7---5---4---5----
B--------------------------------------------------------------
e--------------------------------------------------------------

E---------------------------------------------------------------
A---------------------------------------------------------------
D--7(L)------------------7(L)-----------------------------------
G------4(I)-5--7-5-4-5-4----4(I)-5-7-5-4-5----------------------
B---------------------------------------------------------------
e---------------------------------------------------------------

(play very fast – its a simple continuous scale pattern)

E---------------------------------------------------------------
A---------------------------------------------------------------
D--7------------------------------------------------------------
G-----4--5--7---------------------------------------------------
B---------------5--6--8-----------------------------------------
e-------------------------5--7--8--8--8(slide)10--8--7--5-------


Basic Verse 1:

Lal fite sada moja scu-school uniform / 
Notar syren sonket syllebus e monojog kom.

E-----------------------------------------
A-7----------------7--57------------------
D--7---------7s97s9-----45s777-7754-454h5-
G---4h555-554-----------------------------
B-----------------------------------------
e----------------------------------------- x2

Erpor ekrash, kalo kalo dhoaa /
School bus e kore tar druto chole jaoa.


E------------------------------------
A-----------------------7s977--------
D-----------------75-554-------------
G-4h5555-555555-54-------------------
B------------------------------------
e------------------------------------

Er por bishonyo din baje na mono bin /
Aboshade ghire thaka se dirgho din..

E--------------------7------7--------
A-777---------5-------545--7---7-----
D-----7-7p54h5-757-45-----4--45------
G----4-4-----------------------------
B------------------------------------
e------------------------------------


Basic Chorus:

Hajar kobita.. bekar sobitar/Tar kotha keu bole na/

E-7------7-----7-----7-------------------
A--76-7---76-7--76-7--76-7--7-77-7-------
D------45-----45----45----45------455s74-
G----------------------------------------
B----------------------------------------
e----------------------------------------

Se prothom prem amar nilanjana.

E-------------------------------------------
A-7----77s9-75-5h7-5h7-7----77s9-75-5h7-5h7-
D--45-4-----------------45-4----------------
G-------------------------------------------
B-------------------------------------------
e-------------------------------------------


Original Scale: A minor


What do these symbols mean? Reading Tabs...
http://banglachords.blogspot.com/2009/12/she-prothom-prem-amar-nilanjana-part-i.html



Liked 'She Prothom Prem Amar Nilanjana (Lal Fite Sada Moja) : Tabs' enough to share / save?

She Prothom Prem Amar Nilanjana (Lal Fite Sada Moja) : Tabs

Comments: 0 comment(s)...have your say!

BanglaChords Tip:

Tune your guitar before you start playing.^Top^
 





# Hosted for free on Blogspot.com / "Powered by Blogger." Get yours today at www.blogger.com
# The material collected and made available through these sites is exclusively intended for private study, research & to provide study material for musicians - in good faith. (Copyrights)
# This site uses cookies to offer you a better browsing experience. Kindly read the Terms of Service & Privacy policy and continue only if you agree.
# Copyrights, wherever applicable: IndianGuitarChords.Blogspot.Com (™ ©) / Arindam Sarkar © - MMVIII - MMXVI