Bangla Chords:

0 comment(s) so far...have your say!

Prithibita Naki Choto Hote Hote : Tabs


qrcode for - Prithibita Naki Choto Hote Hote : Tabs
Song: Prithibita Naki Choto Hote Hote
Artist: Mohiner Ghoraguli / Krosswindz
From: Best Of Mohiner Ghoraguli (1999)


View: {Chords} - {Strum & Analysis} - {Tabs} - {Plain Lyrics} - {Song & Videos}


Guitar Tabs:
The song is basically a chord/vocals song and not a tab song. Some nice riffs occur at times though. The intro tabs may be repeated for the body if required, though the body is mostly played as short bursts of strum on an electric guitar.

Intro Tabs:
These are based on the following chord sequence; just hold and play:

Em-C-D7-G-CM7-Am-B-(B strum)

Intro: {repeat 1+1}
E------------------------------------
A------------------------------------
D------------------------------------
G---9-----9-----7-----7--------------
B--8-8---8-8---7-7---8-8-------------
e-7---7-8---8-8---8-7---7------------

E------------------------------------
A------------------------------------
D----(10)----------------------------
G---9----------9-------8-----8-------
B--8-------(10)-(10)--7-7----7-------
e-7-----7-8--------8-7---7---7-------

Basic Verse:
Prithibita naki choto hote hote...
E---------------------------------------------------------------------
A---------------------------------------------------------------------
D---------------------------------------------------------------------
G---------------------------------------------------------------------
B---------------------------------------88------865------865------865-
e-757577-757577-757577-757577-777777-777--5h75-5---5h75-5---5h75-5----


Basic Chorus:
Bhebe dekhecho ki? Tararao joto alokborsho dooray...
E---------------------------------------------------------------
A---------------------------------------------------------------
D---------------------------------------------------------------
G-----------------------------7-7-------7-5h7p5-----------------
B-577s8-77h8-7h888-888-85-77-5---5h7-55--------55444-4457-5h7p5-
e---------------------5-----------------------------------------


Solo at 3:00 mins: (sorry, no more than 60% correct - best i could do)
E----------------------------------------------------
A----------------------------------------------------
D------9------------------------------------9--------
G-8h9v9-88v-9-9------------------------8h9v--8v-9v---
B------------7------8h(10)-8-------8p75--------------
e--------------7h87-------7-5s7v-75------------------

E--------------------------------------------------------------------------------
A--------------------------------------------------------------------------------
D--------------------------------------------------------------------------------
G--------------------------------------------------------------------------------
B-75v-757s875-87878-8--------------------------------------(10)(10)88667---------
e------------5-----5-5757878-(12)v(12)(10)-(12)(10)(10)8877-------------7v-(12)v-


Original Scale: E minor


Learn What do these symbols mean: Reading Tabs...
http://banglachords.blogspot.com/2009/12/prithibita-naki-choto-hote-hote-3-tabs.html



Liked 'Prithibita Naki Choto Hote Hote : Tabs' enough to share / save?

Prithibita Naki Choto Hote Hote : Tabs

Comments: 0 comment(s)...have your say!

BanglaChords Tip:

Tune your guitar before you start playing.^Top^
 





# Hosted for free on Blogspot.com / "Powered by Blogger." Get yours today at www.blogger.com
# The material collected and made available through these sites is exclusively intended for private study, research & to provide study material for musicians - in good faith. (Copyrights)
# This site uses cookies to offer you a better browsing experience. Kindly read the Terms of Service & Privacy policy and continue only if you agree.
# Copyrights, wherever applicable: IndianGuitarChords.Blogspot.Com (™ ©) / Arindam Sarkar © - MMVIII - MMXVI