Bangla Chords:

0 comment(s) so far...have your say!

Path Harabo Bolei Ebar : Tabs


qrcode for - Path Harabo Bolei Ebar : Tabs
Song: Path Harabo Bolei Ebar
Artist: Hemanta Kumar Mukhopadhyay, Lyrics & Music: Salil Chowdhury


View: {Chords} - {Strum & Analysis} - {Tabs} - {Plain Lyrics} - {Song & Videos}


Guitar Tabs:
Basic Chorus:

Poth harabo, bolei ebar, pothay nemechi. /
Shoja pother dhanday, ami anek dhendechi.
E-------------------------------------
A-------------------------------------
D-------------------------------------
G----------76-76467-467---------------
B--575--575------------57875-578---8--
e-5---55------------------------7-5-5-


Basic Verse:

Chena shona janar majhay, kichui chinini je. /
Ochenay haraye tai abar khuji nijay.
E-----------------------------------
A-----------------------------------
D--------------------7-7------------
G---------77-7-76667--4--------6667-
B-77777875----5-----5------8875-----
e-----------------------555--------- x2


She je gaan shuniye chilay, hoyni shedin shona.
E----------------------------------------------
A----------------------------------------------
D----------------------------------------------
G----------------------------------------------
B----------------------------------------------
e-57(10)-7h(10)(10)(10)(10)-(10)h(12)(10)-9579-


She gaaner porosh legay hridoy holo shona./
Raager, ghate ghate tare michei shedhechi.
E--------------------------------------
A--------------------------------------
D--------------------------------------
G--------------------------------------
B----7-----------8-----57575787-78-878-
e-579-8-88-(10)87-575------------------


Shur harabo bolei sitar, shuray bedhaychi./
Shoja pother dhanday, ami anek dhendechi.
E-------------------------------------
A-------------------------------------
D-------------------------------------
G----------76-76467-467---------------
B--575--575------------57875-578---8--
e-5---55------------------------7-5-5-


Original Scale: D major


Learn What do these symbols mean: Reading Tabs...
http://banglachords.blogspot.com/2009/12/path-harabo-bolei-ebar-3-tabs-n-pdf.html



Liked 'Path Harabo Bolei Ebar : Tabs' enough to share / save?

Path Harabo Bolei Ebar : Tabs

Comments: 0 comment(s)...have your say!

BanglaChords Tip:

Tune your guitar before you start playing.^Top^
 





# Hosted for free on Blogspot.com / "Powered by Blogger." Get yours today at www.blogger.com
# The material collected and made available through these sites is exclusively intended for private study, research & to provide study material for musicians - in good faith. (Copyrights)
# This site uses cookies to offer you a better browsing experience. Kindly read the Terms of Service & Privacy policy and continue only if you agree.
# Copyrights, wherever applicable: IndianGuitarChords.Blogspot.Com (™ ©) / Arindam Sarkar © - MMVIII - MMXVI