Bangla Chords:

0 comment(s) so far...have your say!

Mone Pore Ruby Roy (R D Burman) : Tabs


qrcode for - Mone Pore Ruby Roy (R D Burman) : Tabs
Song: Mone Pore Ruby Roy (Rubi Ray)
Artist: Rahul Dev Burman
From: Solid Gold - Rahul Dev Burman, Vol-1


View: {Chords} - {Strum & Analysis} - {Tabs} - {Plain Lyrics} - {Song & Videos}


Guitar Tabs:
Verse 1:

Mone pore Ruby Roy Kobitay tomake ekdin koto kore dekecchi
E------------------------------------
A------------------------------------
D-23------23--320-23--3200-23--------
G---22222---21------21-------1-------
B------------------------------------
e------------------------------------

Aaj hay ruby roy deke bolo amake, tomake kothay jeno dekhechi....
E------------------------------------
A------------------------------------
D-----------23--320-23--3200-232-----
G-442---422---21------21-------------
B----0h1-----------------------------
e------------------------------------

Mone pore Ruby Roy
E------------------------------------
A------------------------------------
D-23---------------------------------
G---22222----2-----------------------
B---------1p0------------------------
e------------------------------------


Verse 2/3:

Rod jola dupure,sur tule nupure /
Bus theke tumi jobe namte.
E------------------------------------------
A------------------------------------------
D------------------------------------------
G-2--2---22--2----2------------------------
B--01-10---10-01---01-310-00h1---0000003---
e--------------------0---------00----------

Ekti kishor chele eka keno darie/
Se kotha ki konodino bhabte
E------------------------------------
A------------------------------------
D------------------------------------
G----222----221-11-22----------------
B-310----100---------0---------------
e------------------------------------


Original Scale: A minor


Learn What do these symbols mean: Reading Tabs...
http://banglachords.blogspot.com/2009/12/mone-pore-ruby-roy-kobitay-tomakay-r-d_27.html



Liked 'Mone Pore Ruby Roy (R D Burman) : Tabs' enough to share / save?

Mone Pore Ruby Roy (R D Burman) : Tabs

Comments: 0 comment(s)...have your say!

BanglaChords Tip:

Tune your guitar before you start playing.^Top^
 





# Hosted for free on Blogspot.com / "Powered by Blogger." Get yours today at www.blogger.com
# The material collected and made available through these sites is exclusively intended for private study, research & to provide study material for musicians - in good faith. (Copyrights)
# This site uses cookies to offer you a better browsing experience. Kindly read the Terms of Service & Privacy policy and continue only if you agree.
# Copyrights, wherever applicable: IndianGuitarChords.Blogspot.Com (™ ©) / Arindam Sarkar © - MMVIII - MMXVI