Bangla Chords:

0 comment(s) so far...have your say!

Mon Amar - Icchay Holo Bajatay Guitar (Anjan Dutta) : Tabs


qrcode for - Mon Amar - Icchay Holo Bajatay Guitar (Anjan Dutta) : Tabs
Song: Mon Amar
Artist: Anjan Dutta
From: Shunte Ki Chao? (1994)


View: {Chords} - {Strum & Analysis} - {Tabs} - {Plain Lyrics} - {Song & Videos}


Guitar Tabs:
Basic Verse:

Tomar kotha shunte bhalo lage bondhura(onekei) bole...
E------------------------------------------------
A------------------------------------------------
D------------------------------------------------
G---------------77-------------------------------
B-78---------------------------------------------
e---55-55-5555-5--(10)(10)(10)(10)-(10)777-5h7p5-

Tai shunlam tomar kotha gaan shonar chhole..
E------------------------------------
A------------------------------------
D---------------------77-------------
G--------------77-77-----------------
B-78----------------55--7-5----------
e---555-55-55-5----------------------

Onek kotha kotokotha kotho kothar surey...
E--------------------------------------------------
A--------------------------------------------------
D--------------------------------------------------
G--------------------------------------------------
B--------------7-7777------------------------------
e-55-55-55-55-5------(10)(10)(10)(10)(10)777-5h7p5-

Ichche holo bolte kotha shurer tale tale...
E------------------------------------
A------------------------------------
D------------------------------------
G--------------7777-77------77-77----
B-78------------------5555-5---------
e---5-55-555-55----------------------

Mon amar...mon amar....mon amar
E------------------------------------
A------------------------------------
D------------------------------------
G-7-------------7--------------------
B--57-7--5-57-75---------------------
e------55----------------------------


Original Scale: D major


Learn What do these symbols mean:  Reading Tabs...
http://banglachords.blogspot.com/2009/12/mon-amar-icchay-holo-bajatay-guitar_27.html



Liked 'Mon Amar - Icchay Holo Bajatay Guitar (Anjan Dutta) : Tabs' enough to share / save?

Mon Amar - Icchay Holo Bajatay Guitar (Anjan Dutta) : Tabs

Comments: 0 comment(s)...have your say!

BanglaChords Tip:

Tune your guitar before you start playing.^Top^
 





# Hosted for free on Blogspot.com / "Powered by Blogger." Get yours today at www.blogger.com
# The material collected and made available through these sites is exclusively intended for private study, research & to provide study material for musicians - in good faith. (Copyrights)
# This site uses cookies to offer you a better browsing experience. Kindly read the Terms of Service & Privacy policy and continue only if you agree.
# Copyrights, wherever applicable: IndianGuitarChords.Blogspot.Com (™ ©) / Arindam Sarkar © - MMVIII - MMXVI