Bangla Chords:

0 comment(s) so far...have your say!

Kanchan Kanchanjungha (Anjan Dutta) : Tabs


qrcode for - Kanchan Kanchanjungha (Anjan Dutta) : Tabs
Song: Kanchan (Kanchanjungha)
Artist: Anjan Dutta
From: Keo Gan Gai (1997)


View: {Chords} - {Strum & Analysis} - {Tabs} - {Plain Lyrics} - {Song & Videos}


Guitar Tabs:
Basic Verse:

Ektu bhalo kore bachbo bole ar ektu beshi rojgar...
E-------------------------------------
A-------------------------------------
D-57--------555-997-57--------555-997-
G---47-7-754----------47-7-754--------
B-------5-----------------5-----------
e-----------------------------------X2

Parlo na kichhutei tomar Kolkata amake bhuliye dite
E----------------------------------------
A-------------------------------------7--
D-------------------7-----------5--7-7-5-
G-47----774-47----77----------7--44-4----
B---55-5------55-5-----5558877-----------
e----------------------------------------


Original Scale: D major


What do these symbols mean? Reading Tabs...
http://banglachords.blogspot.com/2009/12/kanchan-kanchanjungha-anjan-dutta-3.html



Liked 'Kanchan Kanchanjungha (Anjan Dutta) : Tabs' enough to share / save?

Kanchan Kanchanjungha (Anjan Dutta) : Tabs

Comments: 0 comment(s)...have your say!

BanglaChords Tip:

Tune your guitar before you start playing.^Top^
 





# Hosted for free on Blogspot.com / "Powered by Blogger." Get yours today at www.blogger.com
# The material collected and made available through these sites is exclusively intended for private study, research & to provide study material for musicians - in good faith. (Copyrights)
# This site uses cookies to offer you a better browsing experience. Kindly read the Terms of Service & Privacy policy and continue only if you agree.
# Copyrights, wherever applicable: IndianGuitarChords.Blogspot.Com (™ ©) / Arindam Sarkar © - MMVIII - MMXVI