Bangla Chords:

2 comment(s) so far...have your say!

Hoyto Tomari Jonyo (Manna Dey) : Tabs


qrcode for - Hoyto Tomari Jonyo (Manna Dey) : Tabs
Song: Hoyto Tomari Jonyo
Artist: Manna Dey
From: Teen Bhuboner Paare (1969)


View: {Chords} - {Strum & Analysis} - {Tabs} - {Plain Lyrics} - {Song & Videos}


Guitar Tabs:
Basic Chorus:

Hoyto tomari jonno hoechi preme je bonno/
Jani tumi anonno ashar hat barai

E---------------------------------------------
A---------------------------------------------
D---------------------------------------------
G---------------------------------5-5---------
B-----8-------6h888868---66p5-5688---5-5p6886-
e-55-5-5-5h66----------55--------------------- X2


Basic Verse:

Ami je nijei motto janina tomar shorto

E----------------------------------------------------------
A----------------------------------------------------------
D----------------------------------------------------------
G----------------------------------------------------------
B----------------------------------------------------------
e-888-858s(10)(10)-(12)(12)(12)-(12)(10)h(12)-(12)p(10)s88- x2

Jodiba ghote anortho tobuo tomake chai

E------------------------------------
A------------------------------------
D------------------------------------
G------------------------------------
B--------------------------86--------
e-888-865-5p33-3-3356-586-5----------

Hoyto tomari jonno hoechi preme je bonno/
Jani tumi anonno ashar hat barai

E---------------------------------------------
A---------------------------------------------
D---------------------------------------------
G---------------------------------5-5---------
B-----8-------6h888868---66p5-5688---5-5p6886-
e-55-5-5-5h66----------55---------------------


Original Scale: F major


What do these symbols mean? Reading Tabs...
http://banglachords.blogspot.com/2009/12/hoyto-tomari-jonyo-manna-dey-3-tabs-n.html



Liked 'Hoyto Tomari Jonyo (Manna Dey) : Tabs' enough to share / save?

Hoyto Tomari Jonyo (Manna Dey) : Tabs

Comments: 2 comment(s)...have your say!

Saiful Islamsaid...

I dont know, please amake bolun aykhane 'h' dara tab e ke bajanor kotha bola hoyece? kon string ba kon freet?

Saiful Islamsaid...

ay tab ta abong aro onek tab e "h" bebohar korecen. ai h dara ke bojhay?

BanglaChords Tip:

Tune your guitar before you start playing.^Top^
 





# Hosted for free on Blogspot.com / "Powered by Blogger." Get yours today at www.blogger.com
# The material collected and made available through these sites is exclusively intended for private study, research & to provide study material for musicians - in good faith. (Copyrights)
# This site uses cookies to offer you a better browsing experience. Kindly read the Terms of Service & Privacy policy and continue only if you agree.
# Copyrights, wherever applicable: IndianGuitarChords.Blogspot.Com (™ ©) / Arindam Sarkar © - MMVIII - MMXVI