Bangla Chords:

0 comment(s) so far...have your say!

Mon (Ami Shudhu Cheyechi Tomay) : Tabs


qrcode for - Mon (Ami Shudhu Cheyechi Tomay) : Tabs
Song: Mon (Ami Shudhu Cheyechi Tomay)
Artist: Cactus
From: Nil Nirjane (2002)


View: {Chords} - {Strum & Analysis} - {Tabs} - {Plain Lyrics} - {Song & Videos}


Guitar Tabs:
Basic Riff:
E------------------------------------
A------------------------------------
D-9----9----9----9-------------------
G--9-9---9---8-8---8-----------------
B---7-7-7-7---7-7-7-7----------------
e------------------------------------
   [Esus2]    [B major]

Basic Verse:
Mon ... Boro abujh ei mon kichhute manena hae
E------------------------------------------
A---------7777p66h7------------------------
D-4h66p4s2---------4h6p4-467---76-4h66p4s2-
G---------------------------2h4------------
B------------------------------------------
e------------------------------------------

Obiram ahoto smritir bhir ... tobu
E------------------------------------
A------------------------------------
D------------------------------------
G-44h66-6p4s2-246----6p4-4-----------
B----------------42p0-----5s7--------
e------------------------------------


Basic Chorus:
Aami je cheyechhi tomay / Aami shudhu cheyechhi tomay
E------------------------------------
A------------------------------------
D------------------------------------
G----------44s6-2--------------------
B-557p5----------557p5---5s75--------
e------2h42-----------442------------


Aami je cheyechhi tomay / Aami shudhu cheyechhi tomay
E------------------------------------
A------------------------------------
D------------------------------------
G--------44s6-2----------------------
B-575----------557p5-----5s75--------
e----2h42-----------2h442------------


Original Scale: E major


What do these symbols mean? Reading Tabs...
http://banglachords.blogspot.com/2009/11/mon-ami-shudhu-cheyechi-tomay-3-tabs-n.html



Liked 'Mon (Ami Shudhu Cheyechi Tomay) : Tabs' enough to share / save?

Mon (Ami Shudhu Cheyechi Tomay) : Tabs

Comments: 0 comment(s)...have your say!

BanglaChords Tip:

Tune your guitar before you start playing.^Top^
 





# Hosted for free on Blogspot.com / "Powered by Blogger." Get yours today at www.blogger.com
# The material collected and made available through these sites is exclusively intended for private study, research & to provide study material for musicians - in good faith. (Copyrights)
# This site uses cookies to offer you a better browsing experience. Kindly read the Terms of Service & Privacy policy and continue only if you agree.
# Copyrights, wherever applicable: IndianGuitarChords.Blogspot.Com (™ ©) / Arindam Sarkar © - MMVIII - MMXVI