Bangla Chords:

0 comment(s) so far...have your say!

Halud Pakhi (Cactus) : Tabs


qrcode for - Halud Pakhi (Cactus) : Tabs
Song: Halud Pakhi
Artist: Cactus
From: Cactus (1999)


View: {Chords} - {Strum & Analysis} - {Tabs} - {Plain Lyrics} - {Song & Videos}


Guitar Tabs:
Basic Verse:
Sei je holud pakhi, boshe jamrul gacher dalay
E------------------------------------
A------------------------------------
D------------------------------------
G-777-7--------------------------7---
B------5-7-7---------------5h7-75----
e---------5-5-5h7-7h9-99p55----------

Korto dakadaki amar shoishober shokaley.
E-------------------------------------
A-------------------------------------
D-------------------------------------
G-777-7-------------------------------
B------5-7-7--------------------------
e---------5-5-5h77-(12)h(14)(12)p(10)-

Ekdin gelo uray, jani na, kon shuduray,
E---------------------------------------------------
A---------------------------------------------------
D---------------------------------------------------
G---------------------------------------------------
B------------6--------------------------------------
e-(10)5h7-7p5---779h(10)-975-7779(10)-(12)h(14)(12)-


Chorus:
Phirbe na, she ki phirbe na / Phirbe na ar kono din.
E------------------------------------
A------------------------------------
D------------------------------------
G---7------76-7----------------------
B-75-5766-5----6-777-----------(X2)--
e------------------------------------


Original Scale: D major


What do these symbols mean? Reading Tabs...
http://banglachords.blogspot.com/2009/11/halud-pakhi-holud-pakhi-3-tabs-n-pdf.html



Liked 'Halud Pakhi (Cactus) : Tabs' enough to share / save?

Halud Pakhi (Cactus) : Tabs

Comments: 0 comment(s)...have your say!

BanglaChords Tip:

Tune your guitar before you start playing.^Top^
 





# Hosted for free on Blogspot.com / "Powered by Blogger." Get yours today at www.blogger.com
# The material collected and made available through these sites is exclusively intended for private study, research & to provide study material for musicians - in good faith. (Copyrights)
# This site uses cookies to offer you a better browsing experience. Kindly read the Terms of Service & Privacy policy and continue only if you agree.
# Copyrights, wherever applicable: IndianGuitarChords.Blogspot.Com (™ ©) / Arindam Sarkar © - MMVIII - MMXVI