Bangla Chords:

0 comment(s) so far...have your say!

Gram Chara Oi Ranga Matir Poth : Tabs


qrcode for - Gram Chara Oi Ranga Matir Poth : Tabs
Song: Gram Chara Oi Ranga Matir Poth
Artist: Rabindranath Tagore
From: Rabindrasangeet


View: {Chords} - {Strum & Analysis} - {Tabs} - {Plain Lyrics} - {Song & Videos}


Guitar Tabs:
Basic Chorus:
Gram chara oi ranga matir poth...
E--------------------------------------
A--------------------------------------
D-3------------------------------------
G--3-33-3------------------3---------3-
B--------2--4-4433-34---431-1-3431131--
e---------11---------131---------------

Basic Verse:
Ore kar pane mon hath bariye...
E------------------------------------
A------------------------------------
D------------------------------------
G------------------------------------
B-666---66-6---66---66-6-------------
e----365--3------365--3--------------

Lutiye jay dhulaye re amar mono bhulay re...
E------------------------------------------
A------------------------------------------
D------------------------------------------
G--------------------5---------------3h5p3-
B-4-4----6-6-6-4p33h4-3-33-34-3p1-1h3------
e----3-33---3------------------------------

Gram chara oi ranga matir poth...
E--------------------------------------
A--------------------------------------
D-3------------------------------------
G--3-33-3------------------3---------3-
B--------2--4-4433-34---431-1-3431131--
e---------11---------131---------------


Original Scale: Bb major


What do these symbols mean? Reading Tabs...
http://banglachords.blogspot.com/2009/11/gram-chara-oi-ranga-matir-poth-3-tabs-n.html



Liked 'Gram Chara Oi Ranga Matir Poth : Tabs' enough to share / save?

Gram Chara Oi Ranga Matir Poth : Tabs

Comments: 0 comment(s)...have your say!

BanglaChords Tip:

Tune your guitar before you start playing.^Top^
 





# Hosted for free on Blogspot.com / "Powered by Blogger." Get yours today at www.blogger.com
# The material collected and made available through these sites is exclusively intended for private study, research & to provide study material for musicians - in good faith. (Copyrights)
# This site uses cookies to offer you a better browsing experience. Kindly read the Terms of Service & Privacy policy and continue only if you agree.
# Copyrights, wherever applicable: IndianGuitarChords.Blogspot.Com (™ ©) / Arindam Sarkar © - MMVIII - MMXVI