Bangla Chords:

0 comment(s) so far...have your say!

Coffee Houser Sei Addata Aj Ar Nei : Tabs


qrcode for - Coffee Houser Sei Addata Aj Ar Nei : Tabs
Song: Coffee Houser Sei Addata Aj Ar Nei
Artist: Manna Dey
From: single (1980's)


View: {Chords} - {Strum & Analysis} - {Tabs} - {Plain Lyrics} - {Song & Videos}


Guitar Tabs:
Basic Theme: (Aud Lang Sine reprise)
E-7---------------------------------7--
A--7-77-7-7--7-77--------7-7----7-44-7-
D------6-4-64----6---6-44-4-4-64-------
G-----------------4-4------------------
B--------------------------------------
e-------------------------------------- (repeats)

Basic Chorus:
Coffee house er shei adda ta aaj aar nei aaj aar nei...
E------------------------------------
A------------------7-----771---------
D-4s666-66h7-777-64-4-464------------
G------------------------------------
B------------------------------------
e------------------------------------ x2

Basic Verses 1,2,3,4:
Nikhilesh paris e mohidul dhaka te nei kara aaj kono khobor e
E------------------------------------
A------------------------------------
D--------6s7-------------------------
G-444-44----4h666-6646-6h777-76-464--
B---------------------------5--------
e------------------------------------ x2

Kake jyano bhalobeshe aaghat peye je sheshe pagla garod e achhe Roma Ray
E------------------------------|------
A------------------------------|----7-
D-------------------------7--6-|-464--
G-------------66665-554444-44--|------
B-5555444433-3-----------------|------
e------------------------------|(x2)--


Original Scale: Bb major


What do these symbols mean? Reading Tabs...
http://banglachords.blogspot.com/2009/11/coffee-houser-sei-addata-aj-ar-nei-3.html



Liked 'Coffee Houser Sei Addata Aj Ar Nei : Tabs' enough to share / save?

Coffee Houser Sei Addata Aj Ar Nei : Tabs

Comments: 0 comment(s)...have your say!

BanglaChords Tip:

Tune your guitar before you start playing.^Top^
 





# Hosted for free on Blogspot.com / "Powered by Blogger." Get yours today at www.blogger.com
# The material collected and made available through these sites is exclusively intended for private study, research & to provide study material for musicians - in good faith. (Copyrights)
# This site uses cookies to offer you a better browsing experience. Kindly read the Terms of Service & Privacy policy and continue only if you agree.
# Copyrights, wherever applicable: IndianGuitarChords.Blogspot.Com (™ ©) / Arindam Sarkar © - MMVIII - MMXVI