Bangla Chords:

0 comment(s) so far...have your say!

Boro Asha Kore : Tabs


qrcode for - Boro Asha Kore : TabsSong: Boro Asha Kore Echechi Go Kache Deke Low
Artist: Rabindranath Tagore
From: Gitabitan


View: {Chords} - {Strum & Analysis} - {Tabs} - {Plain Lyrics} - {Song & Videos}


Guitar Tabs:
Chorus:
Boro asha kore, eshechi go kache deke lhow.
E----------------------------------------
A----------------------------------------
D-----------------------------5----------
G-5---------------55----3----5-5---------
B--355-565-35--653--3-53--------3-----65-
e-------------3------------------3-5p3---

E------------------------------------
A------------------------------------
D------------------------------------
G-5---------------55----3------------
B--355-565-35--653--3-53-------------
e-------------3----------------------

Verse:
Dino hinay,keho chahe ne / Tumi tare, rakhibe jani go.
E------------------------------------
A------------------------------------
D------------------------------------
G-5----------------------------------
B--535-653----8--------------8-------
e-----3---5-75-59h(10)-895-75------X3

E------------------------------------
A------------------------------------
D---------------------------7--------
G--------------77-7-----7-54-47---5--
B------88-8-865------865-------5p3---
e-578-5----5-------3-----------------

E------------------------------------
A------------------------------------
D-5----------------------------------
G--5--------542-----5----------------
B---3-5--653-----653-----------------
e-------3------53--------------------

Chorus: repeat


Original Scale: C major


What do these symbols mean? Reading Tabs...
http://banglachords.blogspot.com/2009/11/boro-asha-kore-echechi-go-kache-deke.html



Liked 'Boro Asha Kore : Tabs' enough to share / save?

Boro Asha Kore : Tabs

Comments: 0 comment(s)...have your say!

BanglaChords Tip:

Tune your guitar before you start playing.^Top^
 





# Hosted for free on Blogspot.com / "Powered by Blogger." Get yours today at www.blogger.com
# The material collected and made available through these sites is exclusively intended for private study, research & to provide study material for musicians - in good faith. (Copyrights, TOS & Privacy policy)
# Copyrights, wherever applicable: IndianGuitarChords.Blogspot.Com (™ ©) / Arindam Sarkar © - MMVIII - MMXIV