Bangla Chords:

0 comment(s) so far...have your say!

2441139, Bela Bose (Anjan Dutta) : Tabs, Notes


qrcode for - 2441139, Bela Bose (Anjan Dutta) : Tabs, Notes
Song: 2441139, Bela Bose Tumi Parcho Ki Sunte ("Telephone No 2441139")
Artist: Anajn Dutta
From:Shunte Ki Chao? (1994)


View: {Chords} - {Strum & Analysis} - {Tabs} - {Plain Lyrics} - {Videos}


Guitar Tabs:
Intro Leads:

E|--------------------------------------------------------------
A|--------------------------------------------------------------
D|--------------------------------------------------------------
G|------|------------------------|-----------|----6-7-|-7-------
B|-7----|-7-5-4-5-5-5--7--7slide8|-5--5-7-8--|-5------|----5h7--
E|------|5-----------------------|-----------|--------|---------

Basic Verse:

Chakrita ami peye gechi Bela shuncho? Akhon ar keu atkate parbe na....
E|-------------------------------------------------------------------
A|-------------------------------------------------------------------
D|-------------------------------------------------------------------
G|-------------7---------------------------------------------77777-7-
B|-7-7777-75444-57-7777-7-77-7-75-88-88-7-7-77-5-555-57-55555-----5--
e|------------------------------------------------------------------- x2


Basic Chorus:

Eta ki 2 44 11 39, Bela Bose tumi parcho ki shunte?...
E|--------------------------------------------------------------
A|--------------------------------------------------------------
D|--------------------------------------------------------------
G|--------------------------------------------------------------
B|--------------7------------7------------------77-88888-88-875-
e|-5555-55h7-555-77777-5555-5--7777-555-555555-5---------------- x2


Original Scale: D major


Learn What do these symbols mean: Reading Tabs...
http://banglachords.blogspot.com/2009/11/2441139-bela-bose-tumi-parcho-ki-sunte.html



Liked '2441139, Bela Bose (Anjan Dutta) : Tabs, Notes' enough to share / save?

2441139, Bela Bose (Anjan Dutta) : Tabs, Notes

Comments: 0 comment(s)...have your say!

BanglaChords Tip:

Tune your guitar before you start playing.^Top^
 





# Hosted for free on Blogspot.com / "Powered by Blogger." Get yours today at www.blogger.com
# The material collected and made available through these sites is exclusively intended for private study, research & to provide study material for musicians - in good faith. (Copyrights)
# This site uses cookies to offer you a better browsing experience. Kindly read the Terms of Service & Privacy policy and continue only if you agree.
# Copyrights, wherever applicable: IndianGuitarChords.Blogspot.Com (™ ©) / Arindam Sarkar © - MMVIII - MMXVI