Bangla Chords:

0 comment(s) so far...have your say!

Majhi Re, O Majhi Re (Bong Connection) : Tabs


qrcode for - Majhi Re, O Majhi Re (Bong Connection) : Tabs
Song: Majhi Re, O Majhi Re
Artist: Shaan (Shantanu Mukherjee)
From:The Bong Connection (2006)


View:
{ Chords } - { Strum } - { Tabs } - { Lyrics } - { PDF } - { Videos }



Guitar Tabs:
Intro:
E------------------------------------
A------------------------------------
D------------------------------------
G-6h77--------------------7----------
B-------55h6v-66s88865v--5-----------
e------------------------------------X2

Verse:
E-------------------------------------
A-------------------------------------
D-------------------------------------
G-7-------7----7--------7-------------
B--55h7787-57v--55h7v787--5h7v--------
e------------------------5------------

E-----------------------------------------
A-----------------------------------------
D-----------------------------------------
G-------------------------7--------7------
B-7----------7-------------55h7787---5h7v-
e--5h7-7(10)9-5-5h7755h7v-----------5-----

Chorus:
E-----------------------------------------------------
A-----------------------------------------------------
D-----------------------------------------------------
G-----------------------------------------------------
B-----------------------------------------(10)8h(10)v-
e-579s(10)v-(10)p9-7p575h7v-557s8v-7p5-5p3------------

E--------------------------------------------------------------
A--------------------------------------------------------------
D--------------------------------------------------------------
G--------------------------------------------------------------
B--------------------------------------------------(10)8h(10)v-
e-579s(10)-(12)p(14)-(10)p9-7p575h7v-557s8v-7p5-5p3------------

E-------------------------------------------------
A-------------------------------------------------
D-------------------------------------------------
G-6h7--------------------------------77-----------
B-----558h(10)v--------7s8v-8p7p5-5h7-------------
e--------------5p35s7-5---------------------------

Interlude:
E------------------------------------
A------------------------------------
D------------------------------------
G-6h77--------------------7----------
B-------55h6v-66s88865v--5-----------
e------------------------------------X2 (back to verse)


What do these symbols mean? Reading Tabs...
http://banglachords.blogspot.com/2009/04/majhi-re-o-majhi-re-3-tabs.html



Liked 'Majhi Re, O Majhi Re (Bong Connection) : Tabs' enough to share / save?

Majhi Re, O Majhi Re (Bong Connection) : Tabs

Comments: 0 comment(s)...have your say!

BanglaChords Tip:

Tune your guitar before you start playing.^Top^
 





# Hosted for free on Blogspot.com / "Powered by Blogger." Get yours today at www.blogger.com
# The material collected and made available through these sites is exclusively intended for private study, research & to provide study material for musicians - in good faith. (Copyrights)
# This site uses cookies to offer you a better browsing experience. Kindly read the Terms of Service & Privacy policy and continue only if you agree.
# Copyrights, wherever applicable: IndianGuitarChords.Blogspot.Com (™ ©) / Arindam Sarkar © - MMVIII - MMXVI